  0
SECTION
  2
HEADER
  9
$ACADVER
  1
AC1015
  9
$ACADMAINTVER
 70
     6
  9
$DWGCODEPAGE
  3
ANSI_1254
  9
$INSBASE
 10
0.0
 20
0.0
 30
0.0
  9
$EXTMIN
 10
0.0
 20
0.0
 30
0.0
  9
$EXTMAX
 10
279.4
 20
215.9
 30
0.0
  9
$LIMMIN
 10
0.0
 20
0.0
  9
$LIMMAX
 10
279.4
 20
215.9
  9
$ORTHOMODE
 70
     0
  9
$REGENMODE
 70
     1
  9
$FILLMODE
 70
     1
  9
$QTEXTMODE
 70
     0
  9
$MIRRTEXT
 70
     1
  9
$LTSCALE
 40
1.0
  9
$ATTMODE
 70
     1
  9
$TEXTSIZE
 40
3.5
  9
$TRACEWID
 40
1.0
  9
$TEXTSTYLE
  7
Standard
  9
$CLAYER
  8
0
  9
$CELTYPE
  6
ByLayer
  9
$CECOLOR
 62
   256
  9
$CELTSCALE
 40
1.0
  9
$DISPSILH
 70
     0
  9
$DIMSCALE
 40
1.0
  9
$DIMASZ
 40
3.5
  9
$DIMEXO
 40
1.0
  9
$DIMDLI
 40
3.75
  9
$DIMRND
 40
0.0
  9
$DIMDLE
 40
0.0
  9
$DIMEXE
 40
1.0
  9
$DIMTP
 40
0.0
  9
$DIMTM
 40
0.0
  9
$DIMTXT
 40
3.5
  9
$DIMCEN
 40
2.5
  9
$DIMTSZ
 40
0.0
  9
$DIMTOL
 70
     0
  9
$DIMLIM
 70
     0
  9
$DIMTIH
 70
     1
  9
$DIMTOH
 70
     1
  9
$DIMSE1
 70
     0
  9
$DIMSE2
 70
     0
  9
$DIMTAD
 70
     1
  9
$DIMZIN
 70
     0
  9
$DIMBLK
  1

  9
$DIMASO
 70
     1
  9
$DIMSHO
 70
     1
  9
$DIMPOST
  1

  9
$DIMAPOST
  1

  9
$DIMALT
 70
     0
  9
$DIMALTD
 70
     3
  9
$DIMALTF
 40
0.0393700787
  9
$DIMLFAC
 40
1.0
  9
$DIMTOFL
 70
     1
  9
$DIMTVP
 40
0.0
  9
$DIMTIX
 70
     0
  9
$DIMSOXD
 70
     0
  9
$DIMSAH
 70
     0
  9
$DIMBLK1
  1

  9
$DIMBLK2
  1

  9
$DIMSTYLE
  2
ISO-25
  9
$DIMCLRD
 70
     0
  9
$DIMCLRE
 70
     0
  9
$DIMCLRT
 70
     0
  9
$DIMTFAC
 40
1.0
  9
$DIMGAP
 40
1.524
  9
$DIMJUST
 70
     0
  9
$DIMSD1
 70
     0
  9
$DIMSD2
 70
     0
  9
$DIMTOLJ
 70
     0
  9
$DIMTZIN
 70
     0
  9
$DIMALTZ
 70
     0
  9
$DIMALTTZ
 70
     0
  9
$DIMUPT
 70
     0
  9
$DIMDEC
 70
     2
  9
$DIMTDEC
 70
     2
  9
$DIMALTU
 70
     2
  9
$DIMALTTD
 70
     3
  9
$DIMTXSTY
  7
Standard
  9
$DIMAUNIT
 70
     0
  9
$DIMADEC
 70
     2
  9
$DIMALTRND
 40
0.0
  9
$DIMAZIN
 70
     0
  9
$DIMDSEP
 70
    44
  9
$DIMATFIT
 70
     3
  9
$DIMFRAC
 70
     0
  9
$DIMLDRBLK
  1

  9
$DIMLUNIT
 70
     2
  9
$DIMLWD
 70
    -2
  9
$DIMLWE
 70
    -2
  9
$DIMTMOVE
 70
     0
  9
$LUNITS
 70
     2
  9
$LUPREC
 70
     2
  9
$SKETCHINC
 40
1.0
  9
$FILLETRAD
 40
10.0
  9
$AUNITS
 70
     0
  9
$AUPREC
 70
     2
  9
$MENU
  1
.
  9
$ELEVATION
 40
0.0
  9
$PELEVATION
 40
0.0
  9
$THICKNESS
 40
0.0
  9
$LIMCHECK
 70
     0
  9
$CHAMFERA
 40
0.0
  9
$CHAMFERB
 40
0.0
  9
$CHAMFERC
 40
0.0
  9
$CHAMFERD
 40
0.0
  9
$SKPOLY
 70
     0
  9
$TDCREATE
 40
2459741.607844294
  9
$TDUCREATE
 40
2459741.482844294
  9
$TDUPDATE
 40
2459741.607844375
  9
$TDUUPDATE
 40
2459741.482844375
  9
$TDINDWG
 40
0.0000000116
  9
$TDUSRTIMER
 40
0.0000000116
  9
$USRTIMER
 70
     1
  9
$ANGBASE
 50
0.0
  9
$ANGDIR
 70
     0
  9
$PDMODE
 70
     0
  9
$PDSIZE
 40
-1.0
  9
$PLINEWID
 40
0.0
  9
$SPLFRAME
 70
     0
  9
$SPLINETYPE
 70
     6
  9
$SPLINESEGS
 70
     8
  9
$HANDSEED
  5
107
  9
$SURFTAB1
 70
     6
  9
$SURFTAB2
 70
     6
  9
$SURFTYPE
 70
     6
  9
$SURFU
 70
     6
  9
$SURFV
 70
     6
  9
$UCSBASE
  2

  9
$UCSNAME
  2

  9
$UCSORG
 10
0.0
 20
0.0
 30
0.0
  9
$UCSXDIR
 10
1.0
 20
0.0
 30
0.0
  9
$UCSYDIR
 10
0.0
 20
1.0
 30
0.0
  9
$UCSORTHOREF
  2

  9
$UCSORTHOVIEW
 70
     0
  9
$UCSORGTOP
 10
0.0
 20
0.0
 30
0.0
  9
$UCSORGBOTTOM
 10
0.0
 20
0.0
 30
0.0
  9
$UCSORGLEFT
 10
0.0
 20
0.0
 30
0.0
  9
$UCSORGRIGHT
 10
0.0
 20
0.0
 30
0.0
  9
$UCSORGFRONT
 10
0.0
 20
0.0
 30
0.0
  9
$UCSORGBACK
 10
0.0
 20
0.0
 30
0.0
  9
$PUCSBASE
  2

  9
$PUCSNAME
  2

  9
$PUCSORG
 10
0.0
 20
0.0
 30
0.0
  9
$PUCSXDIR
 10
1.0
 20
0.0
 30
0.0
  9
$PUCSYDIR
 10
0.0
 20
1.0
 30
0.0
  9
$PUCSORTHOREF
  2

  9
$PUCSORTHOVIEW
 70
     0
  9
$PUCSORGTOP
 10
0.0
 20
0.0
 30
0.0
  9
$PUCSORGBOTTOM
 10
0.0
 20
0.0
 30
0.0
  9
$PUCSORGLEFT
 10
0.0
 20
0.0
 30
0.0
  9
$PUCSORGRIGHT
 10
0.0
 20
0.0
 30
0.0
  9
$PUCSORGFRONT
 10
0.0
 20
0.0
 30
0.0
  9
$PUCSORGBACK
 10
0.0
 20
0.0
 30
0.0
  9
$USERI1
 70
     0
  9
$USERI2
 70
     0
  9
$USERI3
 70
     0
  9
$USERI4
 70
     0
  9
$USERI5
 70
     0
  9
$USERR1
 40
0.0
  9
$USERR2
 40
0.0
  9
$USERR3
 40
0.0
  9
$USERR4
 40
0.0
  9
$USERR5
 40
0.0
  9
$WORLDVIEW
 70
     1
  9
$SHADEDGE
 70
     3
  9
$SHADEDIF
 70
    70
  9
$TILEMODE
 70
     1
  9
$MAXACTVP
 70
    64
  9
$PINSBASE
 10
0.0
 20
0.0
 30
0.0
  9
$PLIMCHECK
 70
     0
  9
$PEXTMIN
 10
1.0000000000E+20
 20
1.0000000000E+20
 30
1.0000000000E+20
  9
$PEXTMAX
 10
-1.0000000000E+20
 20
-1.0000000000E+20
 30
-1.0000000000E+20
  9
$PLIMMIN
 10
0.0
 20
0.0
  9
$PLIMMAX
 10
420.0
 20
297.0
  9
$UNITMODE
 70
     0
  9
$VISRETAIN
 70
     1
  9
$PLINEGEN
 70
     0
  9
$PSLTSCALE
 70
     1
  9
$TREEDEPTH
 70
  3020
  9
$CMLSTYLE
  2
Standard
  9
$CMLJUST
 70
     0
  9
$CMLSCALE
 40
20.0
  9
$PROXYGRAPHICS
 70
     1
  9
$MEASUREMENT
 70
     1
  9
$CELWEIGHT
370
    -1
  9
$ENDCAPS
280
     0
  9
$JOINSTYLE
280
     0
  9
$LWDISPLAY
290
     1
  9
$INSUNITS
 70
     4
  9
$HYPERLINKBASE
  1

  9
$STYLESHEET
  1

  9
$XEDIT
290
     1
  9
$CEPSNTYPE
380
     0
  9
$PSTYLEMODE
290
     1
  9
$FINGERPRINTGUID
  2
{d68a9d44-dbd9-42d4-b415-d9bb31033c7c}
  9
$VERSIONGUID
  2
{FAEB1C32-E019-11D5-929B-00C0DF256EC4}
  9
$EXTNAMES
290
     1
  9
$PSVPSCALE
 40
0.0
  9
$OLESTARTUP
290
     0
  0
ENDSEC
  0
SECTION
  2
CLASSES
  0
CLASS
  1
ACDBDICTIONARYWDFLT
  2
AcDbDictionaryWithDefault
  3
ObjectDBX Classes
 90
        0
280
     0
281
     0
  0
CLASS
  1
VISUALSTYLE
  2
AcDbVisualStyle
  3
ObjectDBX Classes
 90
     4095
280
     0
281
     0
  0
CLASS
  1
MATERIAL
  2
AcDbMaterial
  3
ObjectDBX Classes
 90
     1153
280
     0
281
     0
  0
CLASS
  1
SCALE
  2
AcDbScale
  3
ObjectDBX Classes
 90
     1153
280
     0
281
     0
  0
CLASS
  1
TABLESTYLE
  2
AcDbTableStyle
  3
ObjectDBX Classes
 90
     4095
280
     0
281
     0
  0
CLASS
  1
MLEADERSTYLE
  2
AcDbMLeaderStyle
  3
ACDB_MLEADERSTYLE_CLASS
 90
     4095
280
     0
281
     0
  0
CLASS
  1
SUN
  2
AcDbSun
  3
SCENEOE
 90
     1153
280
     0
281
     0
  0
CLASS
  1
ACDBPLACEHOLDER
  2
AcDbPlaceHolder
  3
ObjectDBX Classes
 90
        0
280
     0
281
     0
  0
CLASS
  1
LAYOUT
  2
AcDbLayout
  3
ObjectDBX Classes
 90
        0
280
     0
281
     0
  0
ENDSEC
  0
SECTION
  2
TABLES
  0
TABLE
  2
VPORT
  5
8
330
0
100
AcDbSymbolTable
 70
     1
  0
VPORT
  5
29
330
8
100
AcDbSymbolTableRecord
100
AcDbViewportTableRecord
  2
*Active
 70
     0
 10
0.0
 20
0.0
 11
1.0
 21
1.0
 12
139.7
 22
107.95
 13
0.0
 23
0.0
 14
10.0
 24
10.0
 15
10.0
 25
10.0
 16
0.0
 26
0.0
 36
1.0
 17
0.0
 27
0.0
 37
0.0
 40
215.9
 41
1.2941176471
 42
50.0
 43
0.0
 44
0.0
 50
0.0
 51
0.0
 71
     0
 72
  2000
 73
     1
 74
     3
 75
     0
 76
     0
 77
     0
 78
     0
281
     0
 65
     1
110
0.0
120
0.0
130
0.0
111
1.0
121
0.0
131
0.0
112
0.0
122
1.0
132
0.0
 79
     0
146
0.0
  0
ENDTAB
  0
TABLE
  2
LTYPE
  5
5
330
0
100
AcDbSymbolTable
 70
     6
  0
LTYPE
  5
14
330
5
100
AcDbSymbolTableRecord
100
AcDbLinetypeTableRecord
  2
ByBlock
 70
     0
  3

 72
    65
 73
     0
 40
0.0
  0
LTYPE
  5
15
330
5
100
AcDbSymbolTableRecord
100
AcDbLinetypeTableRecord
  2
ByLayer
 70
     0
  3

 72
    65
 73
     0
 40
0.0
  0
LTYPE
  5
16
330
5
100
AcDbSymbolTableRecord
100
AcDbLinetypeTableRecord
  2
Continuous
 70
     0
  3
Solid line
 72
    65
 73
     0
 40
0.0
  0
LTYPE
  5
6E
330
5
100
AcDbSymbolTableRecord
100
AcDbLinetypeTableRecord
  2
HIDDEN
 70
     0
  3
Hidden __ __ __ __ __ __ __ __ __ __ __ __ __ __
 72
    65
 73
     2
 40
1.905
 49
1.27
 74
     0
 49
-0.635
 74
     0
  0
LTYPE
  5
6F
330
5
100
AcDbSymbolTableRecord
100
AcDbLinetypeTableRecord
  2
PHANTOM
 70
     0
  3
Phantom ______  __  __  ______  __  __  ______
 72
    65
 73
     6
 40
12.7
 49
6.35
 74
     0
 49
-1.27
 74
     0
 49
1.27
 74
     0
 49
-1.27
 74
     0
 49
1.27
 74
     0
 49
-1.27
 74
     0
  0
LTYPE
  5
70
330
5
100
AcDbSymbolTableRecord
100
AcDbLinetypeTableRecord
  2
CENTER
 70
     0
  3
Center ____ _ ____ _ ____ _ ____ _ ____ _ ____
 72
    65
 73
     4
 40
10.16
 49
6.35
 74
     0
 49
-1.27
 74
     0
 49
1.27
 74
     0
 49
-1.27
 74
     0
  0
LTYPE
  5
71
330
5
100
AcDbSymbolTableRecord
100
AcDbLinetypeTableRecord
  2
CENTERX2
 70
     0
  3
Center (2x) ________  __  ________  __  _____
 72
    65
 73
     4
 40
20.32
 49
12.7
 74
     0
 49
-2.54
 74
     0
 49
2.54
 74
     0
 49
-2.54
 74
     0
  0
LTYPE
  5
72
330
5
100
AcDbSymbolTableRecord
100
AcDbLinetypeTableRecord
  2
DOT2
 70
     0
  3
Dot (.5x) ........................................
 72
    65
 73
     2
 40
0.635
 49
0.0
 74
     0
 49
-0.635
 74
     0
  0
ENDTAB
  0
TABLE
  2
LAYER
  5
2
330
0
100
AcDbSymbolTable
 70
    17
  0
LAYER
  5
10
330
2
100
AcDbSymbolTableRecord
100
AcDbLayerTableRecord
  2
0
 70
     0
 62
     7
  6
Continuous
370
    -3
390
F
  0
LAYER
  5
73
330
2
100
AcDbSymbolTableRecord
100
AcDbLayerTableRecord
  2
FORMAT
 70
     0
 62
     7
  6
Continuous
370
    -3
390
F
  0
LAYER
  5
74
330
2
100
AcDbSymbolTableRecord
100
AcDbLayerTableRecord
  2
YARDIMCI_GEOMETRI
 70
     0
 62
    -6
  6
Continuous
290
     0
370
    -3
390
F
  0
LAYER
  5
75
330
2
100
AcDbSymbolTableRecord
100
AcDbLayerTableRecord
  2
SAYFA_CERCEVESI
 70
     0
 62
     7
  6
Continuous
370
    25
390
F
  0
LAYER
  5
76
330
2
100
AcDbSymbolTableRecord
100
AcDbLayerTableRecord
  2
ANTET
 70
     0
 62
     7
  6
Continuous
370
    -3
390
F
  0
LAYER
  5
77
330
2
100
AcDbSymbolTableRecord
100
AcDbLayerTableRecord
  2
OLCU
 70
     0
 62
   150
  6
Continuous
370
    -3
390
F
  0
LAYER
  5
78
330
2
100
AcDbSymbolTableRecord
100
AcDbLayerTableRecord
  2
METIN
 70
     0
 62
    96
  6
Continuous
370
    -3
390
F
  0
LAYER
  5
79
330
2
100
AcDbSymbolTableRecord
100
AcDbLayerTableRecord
  2
BALON
 70
     0
 62
     5
  6
Continuous
370
    -3
390
F
  0
LAYER
  5
7A
330
2
100
AcDbSymbolTableRecord
100
AcDbLayerTableRecord
  2
VURGU
 70
     0
 62
     7
  6
Continuous
370
    -3
390
F
  0
LAYER
  5
7B
330
2
100
AcDbSymbolTableRecord
100
AcDbLayerTableRecord
  2
SILIK
 70
     0
 62
     7
  6
Continuous
370
    -3
390
F
  0
LAYER
  5
7C
330
2
100
AcDbSymbolTableRecord
100
AcDbLayerTableRecord
  2
MODEL
 70
     0
 62
     7
  6
Continuous
370
    -3
390
F
  0
LAYER
  5
7D
330
2
100
AcDbSymbolTableRecord
100
AcDbLayerTableRecord
  2
DETAYLANDıRMA
 70
     0
 62
   190
  6
Continuous
370
    -3
390
F
  0
LAYER
  5
7E
330
2
100
AcDbSymbolTableRecord
100
AcDbLayerTableRecord
  2
TOLERANS
 70
     0
 62
   230
  6
Continuous
370
    -3
390
F
  0
LAYER
  5
7F
330
2
100
AcDbSymbolTableRecord
100
AcDbLayerTableRecord
  2
MERKEZ_CIZGILERI
 70
     0
 62
    30
  6
Continuous
370
    -3
390
F
  0
LAYER
  5
80
330
2
100
AcDbSymbolTableRecord
100
AcDbLayerTableRecord
  2
KESIT-DETAY_CIZGILERI
 70
     0
 62
     7
  6
Continuous
370
    -3
390
F
  0
LAYER
  5
81
330
2
100
AcDbSymbolTableRecord
100
AcDbLayerTableRecord
  2
\U+041E\U+0421\U+0415\U+0412\U+042B\U+0415
 70
     0
 62
     7
  6
Continuous
370
    -3
390
F
  0
LAYER
  5
82
330
2
100
AcDbSymbolTableRecord
100
AcDbLayerTableRecord
  2
\U+0412\U+041E\U+0414\U+042F\U+041D\U+042B\U+0415_\U+0417\U+041D\U+0410\U+041A\U+0418
 70
     0
 62
    11
  6
Continuous
370
    -3
390
F
  0
ENDTAB
  0
TABLE
  2
STYLE
  5
3
330
0
100
AcDbSymbolTable
 70
     1
  0
STYLE
  5
11
330
3
100
AcDbSymbolTableRecord
100
AcDbTextStyleTableRecord
  2
Standard
 70
     0
 40
0.0
 41
1.0
 50
0.0
 71
     0
 42
3.5
  3
txt
  4

  0
ENDTAB
  0
TABLE
  2
VIEW
  5
6
330
0
100
AcDbSymbolTable
 70
     0
  0
ENDTAB
  0
TABLE
  2
UCS
  5
7
330
0
100
AcDbSymbolTable
 70
     0
  0
ENDTAB
  0
TABLE
  2
APPID
  5
9
330
0
100
AcDbSymbolTable
 70
     1
  0
APPID
  5
12
330
9
100
AcDbSymbolTableRecord
100
AcDbRegAppTableRecord
  2
ACAD
 70
     0
  0
ENDTAB
  0
TABLE
  2
DIMSTYLE
  5
A
330
0
100
AcDbSymbolTable
 70
     1
100
AcDbDimStyleTable
  0
DIMSTYLE
105
27
330
A
100
AcDbSymbolTableRecord
100
AcDbDimStyleTableRecord
  2
ISO-25
 70
     0
 41
2.5
 42
0.625
 43
3.75
 44
1.25
 73
     0
 74
     0
 77
     1
 78
     8
140
2.5
141
2.5
143
0.0393700787
147
0.625
171
     3
172
     1
178
     0
271
     2
272
     2
274
     3
278
    44
283
     0
284
     8
340
11
  0
ENDTAB
  0
TABLE
  2
BLOCK_RECORD
  5
1
330
0
100
AcDbSymbolTable
 70
     5
  0
BLOCK_RECORD
  5
1F
330
1
100
AcDbSymbolTableRecord
100
AcDbBlockTableRecord
  2
*Model_Space
340
22
  0
BLOCK_RECORD
  5
1B
330
1
100
AcDbSymbolTableRecord
100
AcDbBlockTableRecord
  2
*Paper_Space
340
1E
  0
BLOCK_RECORD
  5
23
330
1
100
AcDbSymbolTableRecord
100
AcDbBlockTableRecord
  2
*Paper_Space0
340
26
  0
BLOCK_RECORD
  5
8C
330
1
100
AcDbSymbolTableRecord
100
AcDbBlockTableRecord
  2
SW_CENTERMARKSYMBOL_0
340
0
102
{BLKREFS
331
97
102
}
  0
BLOCK_RECORD
  5
AA
330
1
100
AcDbSymbolTableRecord
100
AcDbBlockTableRecord
  2
SW_CENTERMARKSYMBOL_1
340
0
102
{BLKREFS
331
B5
102
}
  0
BLOCK_RECORD
  5
DA
330
1
100
AcDbSymbolTableRecord
100
AcDbBlockTableRecord
  2
SW_CENTERMARKSYMBOL_2
340
0
102
{BLKREFS
331
E5
102
}
  0
BLOCK_RECORD
  5
E6
330
1
100
AcDbSymbolTableRecord
100
AcDbBlockTableRecord
  2
SW_CENTERMARKSYMBOL_3
340
0
102
{BLKREFS
331
F1
102
}
  0
ENDTAB
  0
ENDSEC
  0
SECTION
  2
BLOCKS
  0
BLOCK
  5
20
330
1F
100
AcDbEntity
  8
0
100
AcDbBlockBegin
  2
*Model_Space
 70
     0
 10
0.0
 20
0.0
 30
0.0
  3
*Model_Space
  1

  0
ENDBLK
  5
21
330
1F
100
AcDbEntity
  8
0
100
AcDbBlockEnd
  0
BLOCK
  5
1C
330
1B
100
AcDbEntity
 67
     1
  8
0
100
AcDbBlockBegin
  2
*Paper_Space
 70
     0
 10
0.0
 20
0.0
 30
0.0
  3
*Paper_Space
  1

  0
ENDBLK
  5
1D
330
1B
100
AcDbEntity
 67
     1
  8
0
100
AcDbBlockEnd
  0
BLOCK
  5
24
330
23
100
AcDbEntity
  8
0
100
AcDbBlockBegin
  2
*Paper_Space0
 70
     0
 10
0.0
 20
0.0
 30
0.0
  3
*Paper_Space0
  1

  0
ENDBLK
  5
25
330
23
100
AcDbEntity
  8
0
100
AcDbBlockEnd
  0
BLOCK
  5
8D
330
8C
100
AcDbEntity
  8
0
100
AcDbBlockBegin
  2
SW_CENTERMARKSYMBOL_0
 70
     0
 10
0.0
 20
0.0
 30
0.0
  3
SW_CENTERMARKSYMBOL_0
  1

  0
LINE
  5
8F
330
8C
100
AcDbEntity
  8
FORMAT
 62
     0
100
AcDbLine
 10
0.0
 20
0.0
 30
0.0
 11
0.0
 21
2.5
 31
0.0
  0
LINE
  5
90
330
8C
100
AcDbEntity
  8
FORMAT
 62
     0
100
AcDbLine
 10
0.0
 20
0.0
 30
0.0
 11
-2.5
 21
0.0
 31
0.0
  0
LINE
  5
91
330
8C
100
AcDbEntity
  8
FORMAT
 62
     0
100
AcDbLine
 10
0.0
 20
0.0
 30
0.0
 11
0.0
 21
-2.5
 31
0.0
  0
LINE
  5
92
330
8C
100
AcDbEntity
  8
FORMAT
 62
     0
100
AcDbLine
 10
0.0
 20
0.0
 30
0.0
 11
2.5
 21
0.0
 31
0.0
  0
LINE
  5
93
330
8C
100
AcDbEntity
  8
FORMAT
 62
     0
100
AcDbLine
 10
0.0
 20
5.0
 30
0.0
 11
0.0
 21
24.5
 31
0.0
  0
LINE
  5
94
330
8C
100
AcDbEntity
  8
FORMAT
 62
     0
100
AcDbLine
 10
-5.0
 20
0.0
 30
0.0
 11
-24.5
 21
0.0
 31
0.0
  0
LINE
  5
95
330
8C
100
AcDbEntity
  8
FORMAT
 62
     0
100
AcDbLine
 10
0.0
 20
-5.0
 30
0.0
 11
0.0
 21
-24.5
 31
0.0
  0
LINE
  5
96
330
8C
100
AcDbEntity
  8
FORMAT
 62
     0
100
AcDbLine
 10
5.0
 20
0.0
 30
0.0
 11
24.5
 21
0.0
 31
0.0
  0
ENDBLK
  5
8E
330
8C
100
AcDbEntity
  8
0
100
AcDbBlockEnd
  0
BLOCK
  5
AB
330
AA
100
AcDbEntity
  8
0
100
AcDbBlockBegin
  2
SW_CENTERMARKSYMBOL_1
 70
     0
 10
0.0
 20
0.0
 30
0.0
  3
SW_CENTERMARKSYMBOL_1
  1

  0
LINE
  5
AD
330
AA
100
AcDbEntity
  8
FORMAT
 62
     0
100
AcDbLine
 10
0.0
 20
0.0
 30
0.0
 11
0.0
 21
2.5
 31
0.0
  0
LINE
  5
AE
330
AA
100
AcDbEntity
  8
FORMAT
 62
     0
100
AcDbLine
 10
0.0
 20
0.0
 30
0.0
 11
-2.5
 21
0.0
 31
0.0
  0
LINE
  5
AF
330
AA
100
AcDbEntity
  8
FORMAT
 62
     0
100
AcDbLine
 10
0.0
 20
0.0
 30
0.0
 11
0.0
 21
-2.5
 31
0.0
  0
LINE
  5
B0
330
AA
100
AcDbEntity
  8
FORMAT
 62
     0
100
AcDbLine
 10
0.0
 20
0.0
 30
0.0
 11
2.5
 21
0.0
 31
0.0
  0
LINE
  5
B1
330
AA
100
AcDbEntity
  8
FORMAT
 62
     0
100
AcDbLine
 10
0.0
 20
5.0
 30
0.0
 11
0.0
 21
12.5
 31
0.0
  0
LINE
  5
B2
330
AA
100
AcDbEntity
  8
FORMAT
 62
     0
100
AcDbLine
 10
-5.0
 20
0.0
 30
0.0
 11
-12.5
 21
0.0
 31
0.0
  0
LINE
  5
B3
330
AA
100
AcDbEntity
  8
FORMAT
 62
     0
100
AcDbLine
 10
0.0
 20
-5.0
 30
0.0
 11
0.0
 21
-12.5
 31
0.0
  0
LINE
  5
B4
330
AA
100
AcDbEntity
  8
FORMAT
 62
     0
100
AcDbLine
 10
5.0
 20
0.0
 30
0.0
 11
12.5
 21
0.0
 31
0.0
  0
ENDBLK
  5
AC
330
AA
100
AcDbEntity
  8
0
100
AcDbBlockEnd
  0
BLOCK
  5
DB
330
DA
100
AcDbEntity
  8
0
100
AcDbBlockBegin
  2
SW_CENTERMARKSYMBOL_2
 70
     0
 10
0.0
 20
0.0
 30
0.0
  3
SW_CENTERMARKSYMBOL_2
  1

  0
LINE
  5
DD
330
DA
100
AcDbEntity
  8
FORMAT
 62
     0
100
AcDbLine
 10
0.0
 20
0.0
 30
0.0
 11
0.0
 21
2.5
 31
0.0
  0
LINE
  5
DE
330
DA
100
AcDbEntity
  8
FORMAT
 62
     0
100
AcDbLine
 10
0.0
 20
0.0
 30
0.0
 11
-2.5
 21
0.0
 31
0.0
  0
LINE
  5
DF
330
DA
100
AcDbEntity
  8
FORMAT
 62
     0
100
AcDbLine
 10
0.0
 20
0.0
 30
0.0
 11
0.0
 21
-2.5
 31
0.0
  0
LINE
  5
E0
330
DA
100
AcDbEntity
  8
FORMAT
 62
     0
100
AcDbLine
 10
0.0
 20
0.0
 30
0.0
 11
2.5
 21
0.0
 31
0.0
  0
LINE
  5
E1
330
DA
100
AcDbEntity
  8
FORMAT
 62
     0
100
AcDbLine
 10
0.0
 20
5.0
 30
0.0
 11
0.0
 21
9.5
 31
0.0
  0
LINE
  5
E2
330
DA
100
AcDbEntity
  8
FORMAT
 62
     0
100
AcDbLine
 10
-5.0
 20
0.0
 30
0.0
 11
-9.5
 21
0.0
 31
0.0
  0
LINE
  5
E3
330
DA
100
AcDbEntity
  8
FORMAT
 62
     0
100
AcDbLine
 10
0.0
 20
-5.0
 30
0.0
 11
0.0
 21
-9.5
 31
0.0
  0
LINE
  5
E4
330
DA
100
AcDbEntity
  8
FORMAT
 62
     0
100
AcDbLine
 10
5.0
 20
0.0
 30
0.0
 11
9.5
 21
0.0
 31
0.0
  0
ENDBLK
  5
DC
330
DA
100
AcDbEntity
  8
0
100
AcDbBlockEnd
  0
BLOCK
  5
E7
330
E6
100
AcDbEntity
  8
0
100
AcDbBlockBegin
  2
SW_CENTERMARKSYMBOL_3
 70
     0
 10
0.0
 20
0.0
 30
0.0
  3
SW_CENTERMARKSYMBOL_3
  1

  0
LINE
  5
E9
330
E6
100
AcDbEntity
  8
FORMAT
 62
     0
100
AcDbLine
 10
0.0
 20
0.0
 30
0.0
 11
0.0
 21
2.5
 31
0.0
  0
LINE
  5
EA
330
E6
100
AcDbEntity
  8
FORMAT
 62
     0
100
AcDbLine
 10
0.0
 20
0.0
 30
0.0
 11
-2.5
 21
0.0
 31
0.0
  0
LINE
  5
EB
330
E6
100
AcDbEntity
  8
FORMAT
 62
     0
100
AcDbLine
 10
0.0
 20
0.0
 30
0.0
 11
0.0
 21
-2.5
 31
0.0
  0
LINE
  5
EC
330
E6
100
AcDbEntity
  8
FORMAT
 62
     0
100
AcDbLine
 10
0.0
 20
0.0
 30
0.0
 11
2.5
 21
0.0
 31
0.0
  0
LINE
  5
ED
330
E6
100
AcDbEntity
  8
FORMAT
 62
     0
100
AcDbLine
 10
0.0
 20
5.0
 30
0.0
 11
0.0
 21
9.5
 31
0.0
  0
LINE
  5
EE
330
E6
100
AcDbEntity
  8
FORMAT
 62
     0
100
AcDbLine
 10
-5.0
 20
0.0
 30
0.0
 11
-9.5
 21
0.0
 31
0.0
  0
LINE
  5
EF
330
E6
100
AcDbEntity
  8
FORMAT
 62
     0
100
AcDbLine
 10
0.0
 20
-5.0
 30
0.0
 11
0.0
 21
-9.5
 31
0.0
  0
LINE
  5
F0
330
E6
100
AcDbEntity
  8
FORMAT
 62
     0
100
AcDbLine
 10
5.0
 20
0.0
 30
0.0
 11
14.0061426947
 21
0.0
 31
0.0
  0
ENDBLK
  5
E8
330
E6
100
AcDbEntity
  8
0
100
AcDbBlockEnd
  0
ENDSEC
  0
SECTION
  2
ENTITIES
  0
LINE
  5
83
330
1F
100
AcDbEntity
  8
0
  6
Continuous
 62
     7
370
    25
100
AcDbLine
 10
121.3295369748
 20
123.3778527725
 30
0.0
 11
121.3295369748
 21
159.5127918252
 31
0.0
  0
LINE
  5
84
330
1F
100
AcDbEntity
  8
0
  6
Continuous
 62
     7
370
    25
100
AcDbLine
 10
107.3295369748
 20
159.5127918252
 30
0.0
 11
107.3295369748
 21
123.3771699886
 31
0.0
  0
LINE
  5
85
330
1F
100
AcDbEntity
  8
0
  6
Continuous
 62
     7
370
    25
100
AcDbLine
 10
133.9436568915
 20
92.5127918252
 30
0.0
 11
204.3295369748
 21
92.5127918252
 31
0.0
  0
LINE
  5
86
330
1F
100
AcDbEntity
  8
0
  6
Continuous
 62
     7
370
    25
100
AcDbLine
 10
204.3295369748
 20
112.5127918252
 30
0.0
 11
133.9326672259
 21
112.5127918252
 31
0.0
  0
CIRCLE
  5
87
330
1F
100
AcDbEntity
  8
0
  6
Continuous
 62
     7
370
    25
100
AcDbCircle
 10
114.3295369748
 20
102.5127918252
 30
0.0
 40
10.0
  0
CIRCLE
  5
88
330
1F
100
AcDbEntity
  8
0
  6
Continuous
 62
     7
370
    25
100
AcDbCircle
 10
114.3295369748
 20
102.5127918252
 30
0.0
 40
22.00000000000003
  0
LINE
  5
89
330
1F
100
AcDbEntity
  8
0
  6
Continuous
 62
     7
370
    25
100
AcDbLine
 10
114.3295369748
 20
159.5127918252
 30
0.0
 11
107.3295369748
 21
159.5127918252
 31
0.0
  0
LINE
  5
8A
330
1F
100
AcDbEntity
  8
0
  6
Continuous
 62
     7
370
    25
100
AcDbLine
 10
121.3295369748
 20
159.5127918252
 30
0.0
 11
114.3295369748
 21
159.5127918252
 31
0.0
  0
LINE
  5
8B
330
1F
100
AcDbEntity
  8
0
  6
Continuous
 62
     7
370
    25
100
AcDbLine
 10
204.3295369748
 20
112.5127918252
 30
0.0
 11
204.3295369748
 21
92.5127918252
 31
0.0
  0
INSERT
  5
97
330
1F
100
AcDbEntity
  8
FORMAT
 62
     7
100
AcDbBlockReference
  2
SW_CENTERMARKSYMBOL_0
 10
114.3295369748
 20
102.5127918252
 30
0.0
  0
LINE
  5
98
330
1F
100
AcDbEntity
  8
0
  6
Continuous
 62
     7
370
    25
100
AcDbLine
 10
-54.6325150661
 20
124.5127918252
 30
0.0
 11
-55.6369787524
 21
124.5127918252
 31
0.0
  0
LINE
  5
99
330
1F
100
AcDbEntity
  8
0
  6
Continuous
 62
     7
370
    25
100
AcDbLine
 10
27.3674849339
 20
124.5127918252
 30
0.0
 11
-40.6369787524
 21
124.5127918252
 31
0.0
  0
LINE
  5
9A
330
1F
100
AcDbEntity
  8
0
  6
Continuous
 62
     7
370
    25
100
AcDbLine
 10
42.3630212476
 20
124.5127918252
 30
0.0
 11
41.3630212476
 21
124.5127918252
 31
0.0
  0
LINE
  5
9B
330
1F
100
AcDbEntity
  8
0
  6
Continuous
 62
     7
370
    25
100
AcDbLine
 10
-55.6369787524
 20
80.5127918252
 30
0.0
 11
42.3630212476
 21
80.5127918252
 31
0.0
  0
LINE
  5
9C
330
1F
100
AcDbEntity
  8
0
  6
Continuous
 62
     7
370
    25
100
AcDbLine
 10
41.3630212476
 20
124.5127918252
 30
0.0
 11
41.3630212476
 21
159.5127918252
 31
0.0
  0
LINE
  5
9D
330
1F
100
AcDbEntity
  8
0
  6
Continuous
 62
     7
370
    25
100
AcDbLine
 10
27.3630212476
 20
159.5127918252
 30
0.0
 11
27.3630212476
 21
124.5113855789
 31
0.0
  0
LINE
  5
9E
330
1F
100
AcDbEntity
  8
0
  6
Continuous
 62
     7
370
    25
100
AcDbLine
 10
-40.6369787524
 20
124.5127918252
 30
0.0
 11
-40.6369787524
 21
159.5127918252
 31
0.0
  0
LINE
  5
9F
330
1F
100
AcDbEntity
  8
0
  6
Continuous
 62
     7
370
    25
100
AcDbLine
 10
-54.6369787524
 20
159.5127918252
 30
0.0
 11
-54.6369787524
 21
124.5113855789
 31
0.0
  0
CIRCLE
  5
A0
330
1F
100
AcDbEntity
  8
0
  6
Continuous
 62
     7
370
    25
100
AcDbCircle
 10
-6.6369787524
 20
102.5127918252
 30
0.0
 40
6.999999999999993
  0
CIRCLE
  5
A1
330
1F
100
AcDbEntity
  8
0
  6
Continuous
 62
     7
370
    25
100
AcDbCircle
 10
-6.6369787524
 20
102.5127918252
 30
0.0
 40
9.999999999999995
  0
LINE
  5
A2
330
1F
100
AcDbEntity
  8
0
  6
Continuous
 62
     7
370
    25
100
AcDbLine
 10
-55.6369787524
 20
102.5127918252
 30
0.0
 11
-55.6369787524
 21
124.5127918252
 31
0.0
  0
LINE
  5
A3
330
1F
100
AcDbEntity
  8
0
  6
Continuous
 62
     7
370
    25
100
AcDbLine
 10
-55.6369787524
 20
80.5127918252
 30
0.0
 11
-55.6369787524
 21
102.5127918252
 31
0.0
  0
LINE
  5
A4
330
1F
100
AcDbEntity
  8
0
  6
Continuous
 62
     7
370
    25
100
AcDbLine
 10
42.3630212476
 20
102.5127918252
 30
0.0
 11
42.3630212476
 21
124.5127918252
 31
0.0
  0
LINE
  5
A5
330
1F
100
AcDbEntity
  8
0
  6
Continuous
 62
     7
370
    25
100
AcDbLine
 10
42.3630212476
 20
80.5127918252
 30
0.0
 11
42.3630212476
 21
102.5127918252
 31
0.0
  0
SPLINE
  5
A6
330
1F
100
AcDbEntity
  8
0
  6
Continuous
 62
     7
370
    25
100
AcDbSpline
210
0.0
220
0.0
230
1.0
 70
     8
 71
     3
 72
    26
 73
    22
 74
     0
 42
0.00000001
 43
0.00000001
 40
0.0
 40
0.0
 40
0.0
 40
0.0
 40
0.0511331702582496
 40
0.1037933502116473
 40
0.1549148013619596
 40
0.2074417768953689
 40
0.2600413000836436
 40
0.3140886931757431
 40
0.3679559167468817
 40
0.4234801630950363
 40
0.4756383272155059
 40
0.5294418203860601
 40
0.5795304303166957
 40
0.6310342995611095
 40
0.6819291980775328
 40
0.7341721164585325
 40
0.7874318086195184
 40
0.8422062946748826
 40
0.8958262704989401
 40
0.9511281357176448
 40
1.0
 40
1.0
 40
1.0
 40
1.0
 10
41.36302124760115
 20
124.5127918251946
 30
0.0
 10
41.34532248551937
 20
124.5071277996379
 30
0.0
 10
41.30939641635941
 20
124.4956306015326
 30
0.0
 10
41.02119416559719
 20
124.4054797171202
 30
0.0
 10
40.56773108448911
 20
124.2708497999842
 30
0.0
 10
39.94878132596639
 20
124.1009566862698
 30
0.0
 10
39.16942215893563
 20
123.9107609576888
 30
0.0
 10
38.24950191344725
 20
123.7210652739341
 30
0.0
 10
37.19852349119859
 20
123.5518444467846
 30
0.0
 10
36.07175272663025
 20
123.4286700945165
 30
0.0
 10
34.89263186966929
 20
123.3651358085939
 30
0.0
 10
33.73620540128156
 20
123.368298201331
 30
0.0
 10
32.60467466648276
 20
123.434030076964
 30
0.0
 10
31.54315096101781
 20
123.5508958476619
 30
0.0
 10
30.54472598902526
 20
123.709189354357
 30
0.0
 10
29.63772193356141
 20
123.892601222871
 30
0.0
 10
28.83822989829749
 20
124.0848905863083
 30
0.0
 10
28.18514246630078
 20
124.2629554328153
 30
0.0
 10
27.7048441417298
 20
124.4053788058301
 30
0.0
 10
27.41262703345162
 20
124.4969250398984
 30
0.0
 10
27.38190010591942
 20
124.5067632922999
 30
0.0
 10
27.36748493388555
 20
124.5113787912212
 30
0.0
  0
SPLINE
  5
A7
330
1F
100
AcDbEntity
  8
0
  6
Continuous
 62
     7
370
    25
100
AcDbSpline
210
0.0
220
0.0
230
1.0
 70
     8
 71
     3
 72
    26
 73
    22
 74
     0
 42
0.00000001
 43
0.00000001
 40
0.0
 40
0.0
 40
0.0
 40
0.0
 40
0.0511331702582496
 40
0.1037933502116473
 40
0.1549148013619596
 40
0.2074417768953689
 40
0.2600413000836436
 40
0.3140886931757431
 40
0.3679559167468817
 40
0.4234801630950363
 40
0.4756383272155059
 40
0.5294418203860601
 40
0.5795304303166957
 40
0.6310342995611095
 40
0.6819291980775328
 40
0.7341721164585325
 40
0.7874318086195184
 40
0.8422062946748826
 40
0.8958262704989401
 40
0.9511281357176448
 40
1.0
 40
1.0
 40
1.0
 40
1.0
 10
-40.63697875239888
 20
124.5127918251946
 30
0.0
 10
-40.65467751448065
 20
124.5071277996379
 30
0.0
 10
-40.69060358364061
 20
124.4956306015326
 30
0.0
 10
-40.97880583440285
 20
124.4054797171202
 30
0.0
 10
-41.43226891551087
 20
124.2708497999842
 30
0.0
 10
-42.05121867403366
 20
124.1009566862698
 30
0.0
 10
-42.83057784106438
 20
123.9107609576888
 30
0.0
 10
-43.75049808655275
 20
123.7210652739341
 30
0.0
 10
-44.80147650880142
 20
123.5518444467846
 30
0.0
 10
-45.92824727336978
 20
123.4286700945165
 30
0.0
 10
-47.10736813033071
 20
123.3651358085939
 30
0.0
 10
-48.26379459871846
 20
123.368298201331
 30
0.0
 10
-49.39532533351725
 20
123.434030076964
 30
0.0
 10
-50.45684903898223
 20
123.5508958476619
 30
0.0
 10
-51.45527401097475
 20
123.709189354357
 30
0.0
 10
-52.36227806643861
 20
123.892601222871
 30
0.0
 10
-53.16177010170255
 20
124.0848905863083
 30
0.0
 10
-53.81485753369923
 20
124.2629554328153
 30
0.0
 10
-54.29515585827021
 20
124.4053788058301
 30
0.0
 10
-54.58737296654841
 20
124.4969250398984
 30
0.0
 10
-54.61809989408061
 20
124.5067632922999
 30
0.0
 10
-54.63251506611447
 20
124.5113787912212
 30
0.0
  0
LINE
  5
A8
330
1F
100
AcDbEntity
  8
0
  6
Continuous
 62
     7
370
    25
100
AcDbLine
 10
41.3630212476
 20
159.5127918252
 30
0.0
 11
27.3630212476
 21
159.5127918252
 31
0.0
  0
LINE
  5
A9
330
1F
100
AcDbEntity
  8
0
  6
Continuous
 62
     7
370
    25
100
AcDbLine
 10
-40.6369787524
 20
159.5127918252
 30
0.0
 11
-54.6369787524
 21
159.5127918252
 31
0.0
  0
INSERT
  5
B5
330
1F
100
AcDbEntity
  8
FORMAT
 62
     7
100
AcDbBlockReference
  2
SW_CENTERMARKSYMBOL_1
 10
-6.6369787524
 20
102.5127918252
 30
0.0
  0
LINE
  5
B6
330
1F
100
AcDbEntity
  8
0
  6
Continuous
 62
     7
370
    25
100
AcDbLine
 10
136.3295369748
 20
239.9044699658
 30
0.0
 11
136.3295369748
 21
278.9044699658
 31
0.0
  0
LINE
  5
B7
330
1F
100
AcDbEntity
  8
0
  6
Continuous
 62
     7
370
    25
100
AcDbLine
 10
136.3295369748
 20
180.9044699658
 30
0.0
 11
136.3295369748
 21
219.9318487712
 31
0.0
  0
LINE
  5
B8
330
1F
100
AcDbEntity
  8
0
  6
Continuous
 62
     7
370
    25
100
AcDbLine
 10
92.3295369748
 20
278.9044699658
 30
0.0
 11
92.3295369748
 21
180.9044699658
 31
0.0
  0
LINE
  5
B9
330
1F
100
AcDbEntity
  8
0
  6
Continuous
 62
     7
370
    25
100
AcDbLine
 10
136.317135115
 20
219.9044699658
 30
0.0
 11
204.3295369748
 21
219.9044699658
 31
0.0
  0
LINE
  5
BA
330
1F
100
AcDbEntity
  8
0
  6
Continuous
 62
     7
370
    25
100
AcDbLine
 10
204.3295369748
 20
239.9044699658
 30
0.0
 11
136.3295369748
 21
239.9044699658
 31
0.0
  0
SPLINE
  5
BB
330
1F
100
AcDbEntity
  8
0
  6
Continuous
 62
     7
370
    25
100
AcDbSpline
210
0.0
220
0.0
230
1.0
 70
     8
 71
     3
 72
    27
 73
    23
 74
     0
 42
0.00000001
 43
0.00000001
 40
0.0
 40
0.0
 40
0.0
 40
0.0
 40
0.0493586139300482
 40
0.1002323018768612
 40
0.1495702843187568
 40
0.2002087704685641
 40
0.252167667484519
 40
0.3054638423439567
 40
0.3604228873598289
 40
0.4171466436260111
 40
0.469013839645916
 40
0.5227149136556893
 40
0.5698398307008306
 40
0.6182817012845756
 40
0.6665902065725859
 40
0.7160567440479336
 40
0.7692498342889994
 40
0.8238840201435373
 40
0.8786078794321118
 40
0.9351642300516483
 40
0.9859157616870963
 40
1.0
 40
1.0
 40
1.0
 40
1.0
 10
136.3295369747899
 20
239.9044699658131
 30
0.0
 10
136.3186022896314
 20
239.8805292391993
 30
0.0
 10
136.2963972766365
 20
239.8319129198569
 30
0.0
 10
136.1221078947995
 20
239.4429759632376
 30
0.0
 10
135.8610028128081
 20
238.8342838768119
 30
0.0
 10
135.5263991331062
 20
238.0013001196172
 30
0.0
 10
135.1425334264473
 20
236.9456205819081
 30
0.0
 10
134.7423385183111
 20
235.6718148180731
 30
0.0
 10
134.3681480504339
 20
234.1874936241985
 30
0.0
 10
134.0831180080479
 20
232.5718258974618
 30
0.0
 10
133.9255280051002
 20
230.8763348633588
 30
0.0
 10
133.9144502275421
 20
229.2461834790824
 30
0.0
 10
134.0332749775033
 20
227.6772286695002
 30
0.0
 10
134.2512909237045
 20
226.2269895542338
 30
0.0
 10
134.5528748799835
 20
224.8519932569646
 30
0.0
 10
134.9149564253606
 20
223.562169440395
 30
0.0
 10
135.3105882117312
 20
222.3837075428794
 30
0.0
 10
135.6964113860994
 20
221.3738268052049
 30
0.0
 10
136.0285794514213
 20
220.5792348938414
 30
0.0
 10
136.2421497356841
 20
220.0966029632262
 30
0.0
 10
136.3377872222595
 20
219.8862677674196
 30
0.0
 10
136.320808623706
 20
219.9237142849662
 30
0.0
 10
136.3171203721677
 20
219.9318487711848
 30
0.0
  0
LINE
  5
BC
330
1F
100
AcDbEntity
  8
0
  6
Continuous
 62
     7
370
    25
100
AcDbLine
 10
92.3295369748
 20
278.9044699658
 30
0.0
 11
136.3295369748
 21
278.9044699658
 31
0.0
  0
LINE
  5
BD
330
1F
100
AcDbEntity
  8
0
  6
Continuous
 62
     7
370
    25
100
AcDbLine
 10
92.3295369748
 20
180.9044699658
 30
0.0
 11
136.3295369748
 21
180.9044699658
 31
0.0
  0
LINE
  5
BE
330
1F
100
AcDbEntity
  8
0
  6
Continuous
 62
     7
370
    25
100
AcDbLine
 10
204.3295369748
 20
239.9044699658
 30
0.0
 11
204.3295369748
 21
219.9044699658
 31
0.0
  0
LINE
  5
BF
330
1F
100
AcDbEntity
  8
0
  6
Continuous
 62
     7
370
    25
100
AcDbLine
 10
259.1683966825
 20
80.5127918252
 30
0.0
 11
357.1683966825
 21
80.5127918252
 31
0.0
  0
LINE
  5
C0
330
1F
100
AcDbEntity
  8
0
  6
Continuous
 62
     7
370
    25
100
AcDbLine
 10
260.1683966825
 20
124.5127918252
 30
0.0
 11
259.1683966825
 21
124.5127918252
 31
0.0
  0
LINE
  5
C1
330
1F
100
AcDbEntity
  8
0
  6
Continuous
 62
     7
370
    25
100
AcDbLine
 10
342.1683966825
 20
124.5127918252
 30
0.0
 11
274.1639329962
 21
124.5127918252
 31
0.0
  0
LINE
  5
C2
330
1F
100
AcDbEntity
  8
0
  6
Continuous
 62
     7
370
    25
100
AcDbLine
 10
357.1683966825
 20
124.5127918252
 30
0.0
 11
356.1639329962
 21
124.5127918252
 31
0.0
  0
LINE
  5
C3
330
1F
100
AcDbEntity
  8
0
  6
Continuous
 62
     7
370
    25
100
AcDbLine
 10
274.1683966825
 20
124.5113855789
 30
0.0
 11
274.1683966825
 21
159.5127918252
 31
0.0
  0
LINE
  5
C4
330
1F
100
AcDbEntity
  8
0
  6
Continuous
 62
     7
370
    25
100
AcDbLine
 10
260.1683966825
 20
159.5127918252
 30
0.0
 11
260.1683966825
 21
124.5127918252
 31
0.0
  0
LINE
  5
C5
330
1F
100
AcDbEntity
  8
0
  6
Continuous
 62
     7
370
    25
100
AcDbLine
 10
356.1683966825
 20
124.5113855789
 30
0.0
 11
356.1683966825
 21
159.5127918252
 31
0.0
  0
LINE
  5
C6
330
1F
100
AcDbEntity
  8
0
  6
Continuous
 62
     7
370
    25
100
AcDbLine
 10
342.1683966825
 20
159.5127918252
 30
0.0
 11
342.1683966825
 21
124.5127918252
 31
0.0
  0
LINE
  5
C7
330
1F
100
AcDbEntity
  8
0
  6
Continuous
 62
     7
370
    25
100
AcDbLine
 10
357.1683966825
 20
124.5127918252
 30
0.0
 11
357.1683966825
 21
80.5127918252
 31
0.0
  0
LINE
  5
C8
330
1F
100
AcDbEntity
  8
0
  6
Continuous
 62
     7
370
    25
100
AcDbLine
 10
259.1683966825
 20
124.5127918252
 30
0.0
 11
259.1683966825
 21
80.5127918252
 31
0.0
  0
SPLINE
  5
C9
330
1F
100
AcDbEntity
  8
0
  6
Continuous
 62
     7
370
    25
100
AcDbSpline
210
0.0
220
0.0
230
1.0
 70
     8
 71
     3
 72
    27
 73
    23
 74
     0
 42
0.00000001
 43
0.00000001
 40
0.0
 40
0.0
 40
0.0
 40
0.0
 40
0.0026160515322937
 40
0.0556780802630228
 40
0.1059001752218258
 40
0.1575133375507164
 40
0.2090209802033005
 40
0.261907954497671
 40
0.3154822174549665
 40
0.3706154887078399
 40
0.4239207236444004
 40
0.4789230844907443
 40
0.5297639097279441
 40
0.5821307240020357
 40
0.6322524185796022
 40
0.68372159775016
 40
0.7358729474126224
 40
0.78943723084984
 40
0.8432928032808178
 40
0.8987738759031307
 40
0.9486847287901331
 40
1.0
 40
1.0
 40
1.0
 40
1.0
 10
274.1639329962078
 20
124.5113787912212
 30
0.0
 10
274.1654092523473
 20
124.5118460856956
 30
0.0
 10
274.1968287816701
 20
124.5217916310838
 30
0.0
 10
274.0817363126586
 20
124.4851089332891
 30
0.0
 10
273.8090491374997
 20
124.4002419166837
 30
0.0
 10
273.3494469963007
 20
124.2640169001451
 30
0.0
 10
272.7273627857724
 20
124.0940713966136
 30
0.0
 10
271.9487170010695
 20
123.9048618922777
 30
0.0
 10
271.0191046092319
 20
123.7143883714604
 30
0.0
 10
269.9730877845358
 20
123.5477889244125
 30
0.0
 10
268.8317367011363
 20
123.4248877093737
 30
0.0
 10
267.6675304720824
 20
123.3643788603136
 30
0.0
 10
266.4960838584271
 20
123.3698593076923
 30
0.0
 10
265.3799035288867
 20
123.436469495839
 30
0.0
 10
264.3109380399264
 20
123.5561273870222
 30
0.0
 10
263.3207825686433
 20
123.7144821257881
 30
0.0
 10
262.4131535694154
 20
123.8992721049565
 30
0.0
 10
261.622000080199
 20
124.0905475139784
 30
0.0
 10
260.9689236867046
 20
124.2690771596525
 30
0.0
 10
260.5078762001409
 20
124.4062283964256
 30
0.0
 10
260.2212359919618
 20
124.4958775873787
 30
0.0
 10
260.1861719459905
 20
124.5071018372468
 30
0.0
 10
260.1683966824921
 20
124.5127918251946
 30
0.0
  0
SPLINE
  5
CA
330
1F
100
AcDbEntity
  8
0
  6
Continuous
 62
     7
370
    25
100
AcDbSpline
210
0.0
220
0.0
230
1.0
 70
     8
 71
     3
 72
    27
 73
    23
 74
     0
 42
0.00000001
 43
0.00000001
 40
0.0
 40
0.0
 40
0.0
 40
0.0
 40
0.0026160515322937
 40
0.0556780802630228
 40
0.1059001752218257
 40
0.1575133375507164
 40
0.2090209802033005
 40
0.261907954497671
 40
0.3154822174549665
 40
0.3706154887078399
 40
0.4239207236444004
 40
0.4789230844907442
 40
0.5297639097279441
 40
0.5821307240020357
 40
0.6322524185796022
 40
0.68372159775016
 40
0.7358729474126224
 40
0.7894372308498399
 40
0.8432928032808178
 40
0.8987738759031307
 40
0.9486847287901331
 40
1.0
 40
1.0
 40
1.0
 40
1.0
 10
356.1639329962078
 20
124.5113787912212
 30
0.0
 10
356.1654092523473
 20
124.5118460856956
 30
0.0
 10
356.1968287816701
 20
124.5217916310838
 30
0.0
 10
356.0817363126586
 20
124.4851089332891
 30
0.0
 10
355.8090491374998
 20
124.4002419166837
 30
0.0
 10
355.3494469963008
 20
124.2640169001451
 30
0.0
 10
354.7273627857724
 20
124.0940713966136
 30
0.0
 10
353.9487170010694
 20
123.9048618922777
 30
0.0
 10
353.0191046092319
 20
123.7143883714604
 30
0.0
 10
351.9730877845358
 20
123.5477889244125
 30
0.0
 10
350.8317367011363
 20
123.4248877093737
 30
0.0
 10
349.6675304720824
 20
123.3643788603136
 30
0.0
 10
348.4960838584272
 20
123.3698593076923
 30
0.0
 10
347.3799035288867
 20
123.436469495839
 30
0.0
 10
346.3109380399264
 20
123.5561273870222
 30
0.0
 10
345.3207825686433
 20
123.7144821257881
 30
0.0
 10
344.4131535694154
 20
123.8992721049566
 30
0.0
 10
343.622000080199
 20
124.0905475139784
 30
0.0
 10
342.9689236867046
 20
124.2690771596525
 30
0.0
 10
342.5078762001409
 20
124.4062283964256
 30
0.0
 10
342.2212359919618
 20
124.4958775873787
 30
0.0
 10
342.1861719459905
 20
124.5071018372468
 30
0.0
 10
342.1683966824922
 20
124.5127918251946
 30
0.0
  0
LINE
  5
CB
330
1F
100
AcDbEntity
  8
0
  6
Continuous
 62
     7
370
    25
100
AcDbLine
 10
274.1683966825
 20
159.5127918252
 30
0.0
 11
260.1683966825
 21
159.5127918252
 31
0.0
  0
LINE
  5
CC
330
1F
100
AcDbEntity
  8
0
  6
Continuous
 62
     7
370
    25
100
AcDbLine
 10
356.1683966825
 20
159.5127918252
 30
0.0
 11
342.1683966825
 21
159.5127918252
 31
0.0
  0
LINE
  5
CD
330
1F
100
AcDbEntity
  8
0
  6
Continuous
 62
     7
370
    25
100
AcDbLine
 10
92.3295369748
 20
41.4659939411
 30
0.0
 11
92.3295369748
 21
-56.5340060589
 31
0.0
  0
LINE
  5
CE
330
1F
100
AcDbEntity
  8
0
  6
Continuous
 62
     7
370
    25
100
AcDbLine
 10
136.3295369748
 20
2.4386151357
 30
0.0
 11
136.3295369748
 21
41.4659939411
 31
0.0
  0
LINE
  5
CF
330
1F
100
AcDbEntity
  8
0
  6
Continuous
 62
     7
370
    25
100
AcDbLine
 10
136.3295369748
 20
-56.5340060589
 30
0.0
 11
136.3295369748
 21
-17.5340060589
 31
0.0
  0
LINE
  5
D0
330
1F
100
AcDbEntity
  8
0
  6
Continuous
 62
     7
370
    25
100
AcDbLine
 10
136.3295369748
 20
-17.5340060589
 30
0.0
 11
204.3295369748
 21
-17.5340060589
 31
0.0
  0
LINE
  5
D1
330
1F
100
AcDbEntity
  8
0
  6
Continuous
 62
     7
370
    25
100
AcDbLine
 10
204.3295369748
 20
2.4659939411
 30
0.0
 11
136.317135115
 21
2.4659939411
 31
0.0
  0
CIRCLE
  5
D2
330
1F
100
AcDbEntity
  8
0
  6
Continuous
 62
     7
370
    25
100
AcDbCircle
 10
114.3295369748
 20
33.4659939411
 30
0.0
 40
5.000000000000007
  0
CIRCLE
  5
D3
330
1F
100
AcDbEntity
  8
0
  6
Continuous
 62
     7
370
    25
100
AcDbCircle
 10
114.3295369748
 20
33.4659939411
 30
0.0
 40
7.000000000000021
  0
CIRCLE
  5
D4
330
1F
100
AcDbEntity
  8
0
  6
Continuous
 62
     7
370
    25
100
AcDbCircle
 10
114.3295369748
 20
-48.5340060589
 30
0.0
 40
7.000000000000014
  0
CIRCLE
  5
D5
330
1F
100
AcDbEntity
  8
0
  6
Continuous
 62
     7
370
    25
100
AcDbCircle
 10
114.3295369748
 20
-48.5340060589
 30
0.0
 40
5.0
  0
LWPOLYLINE
  5
D6
330
1F
100
AcDbEntity
  8
0
  6
Continuous
 62
     7
370
    25
100
AcDbPolyline
 90
       22
 70
   128
 43
0.0
 10
136.3171203722
 20
2.4386151357
 10
136.2957424799
 20
2.3914251304
 10
136.1627806391
 20
2.0935860027
 10
135.933752141
 20
1.5622631184
 10
135.6304832418
 20
0.8164617045
 10
135.2717943922
 20
-0.1463037275
 10
134.8757680021
 20
-1.3576309547
 10
134.4932574118
 20
-2.782625011
 10
134.1819811903
 20
-4.3528834062
 10
133.9784120133
 20
-6.0923784093
 10
133.925968767
 20
-7.6759179548
 10
134.0055132671
 20
-9.3071510203
 10
134.1857293465
 20
-10.7384366637
 10
134.4554468845
 20
-12.1222791211
 10
134.7963611103
 20
-13.4408571822
 10
135.1738879822
 20
-14.639424338
 10
135.566994525
 20
-15.7211669341
 10
135.9193109406
 20
-16.5959230689
 10
136.1705133142
 20
-17.1791212713
 10
136.3109245819
 20
-17.4929920081
 10
136.3295369748
 20
-17.5340060589
 10
136.3295369748
 20
-17.5340060589
  0
LINE
  5
D7
330
1F
100
AcDbEntity
  8
0
  6
Continuous
 62
     7
370
    25
100
AcDbLine
 10
136.3295369748
 20
-56.5340060589
 30
0.0
 11
92.3295369748
 21
-56.5340060589
 31
0.0
  0
LINE
  5
D8
330
1F
100
AcDbEntity
  8
0
  6
Continuous
 62
     7
370
    25
100
AcDbLine
 10
136.3295369748
 20
41.4659939411
 30
0.0
 11
92.3295369748
 21
41.4659939411
 31
0.0
  0
LINE
  5
D9
330
1F
100
AcDbEntity
  8
0
  6
Continuous
 62
     7
370
    25
100
AcDbLine
 10
204.3295369748
 20
2.4659939411
 30
0.0
 11
204.3295369748
 21
-17.5340060589
 31
0.0
  0
INSERT
  5
E5
330
1F
100
AcDbEntity
  8
FORMAT
 62
     7
100
AcDbBlockReference
  2
SW_CENTERMARKSYMBOL_2
 10
114.3295369748
 20
33.4659939411
 30
0.0
  0
INSERT
  5
F1
330
1F
100
AcDbEntity
  8
FORMAT
 62
     7
100
AcDbBlockReference
  2
SW_CENTERMARKSYMBOL_3
 10
114.3295369748
 20
-48.5340060589
 30
0.0
  0
LINE
  5
F2
330
1F
100
AcDbEntity
  8
0
  6
Continuous
 62
     7
370
    25
100
AcDbLine
 10
323.9831294335
 20
-28.0668235894
 30
0.0
 11
372.8921950639
 21
0.1677790087
 31
0.0
  0
LINE
  5
F3
330
1F
100
AcDbEntity
  8
0
  6
Continuous
 62
     7
370
    25
100
AcDbLine
 10
362.8930077376
 20
17.4887562563
 30
0.0
 11
313.984249152
 21
-10.7456690885
 31
0.0
  0
LINE
  5
F4
330
1F
100
AcDbEntity
  8
0
  6
Continuous
 62
     7
370
    25
100
AcDbLine
 10
349.9003294311
 20
-28.8590211668
 30
0.0
 11
336.255591861
 21
-20.9820818329
 31
0.0
  0
LINE
  5
F5
330
1F
100
AcDbEntity
  8
0
  6
Continuous
 62
     7
370
    25
100
AcDbLine
 10
316.2539663816
 20
-9.435389222
 30
0.0
 11
280.6038648748
 21
11.1449763125
 31
0.0
  0
LINE
  5
F6
330
1F
100
AcDbEntity
  8
0
  6
Continuous
 62
     7
370
    25
100
AcDbLine
 10
258.6056527568
 20
-26.9611736322
 30
0.0
 11
327.9021173131
 21
-66.9651711116
 31
0.0
  0
LINE
  5
F7
330
1F
100
AcDbEntity
  8
0
  6
Continuous
 62
     7
370
    25
100
AcDbLine
 10
282.2616130653
 20
10.1879786524
 30
0.0
 11
282.2616130653
 21
35.3690951703
 31
0.0
  0
LINE
  5
F8
330
1F
100
AcDbEntity
  8
0
  6
Continuous
 62
     7
370
    25
100
AcDbLine
 10
268.2616130653
 20
35.3690951703
 30
0.0
 11
268.2616130653
 21
9.2133345591
 31
0.0
  0
LINE
  5
F9
330
1F
100
AcDbEntity
  8
0
  6
Continuous
 62
     7
370
    25
100
AcDbLine
 10
340.2443691226
 20
-23.2847539323
 30
0.0
 11
340.2443691226
 21
-18.6794097335
 31
0.0
  0
LINE
  5
FA
330
1F
100
AcDbEntity
  8
0
  6
Continuous
 62
     7
370
    25
100
AcDbLine
 10
326.2443691226
 20
1.8963625856
 30
0.0
 11
326.2443691226
 21
-3.6680524808
 31
0.0
  0
SPLINE
  5
FB
330
1F
100
AcDbEntity
  8
0
  6
Continuous
 62
     7
370
    25
100
AcDbSpline
210
0.0
220
0.0
230
1.0
 70
     8
 71
     3
 72
    22
 73
    18
 74
     0
 42
0.00000001
 43
0.00000001
 40
0.0
 40
0.0
 40
0.0
 40
0.0
 40
0.0657976361154294
 40
0.1336149458178099
 40
0.1993850790711875
 40
0.2668888523708844
 40
0.3361528030089637
 40
0.4071994155559737
 40
0.4804627217405995
 40
0.5560784811132597
 40
0.6252201894862287
 40
0.6968065539597207
 40
0.7596265542964477
 40
0.8242021231715615
 40
0.888599909072226
 40
0.9545414129666812
 40
1.0
 40
1.0
 40
1.0
 40
1.0
 10
312.7382724682117
 20
-14.84756761036343
 30
0.0
 10
312.7474691281882
 20
-15.28989712690558
 30
0.0
 10
312.7661447417362
 20
-16.18813356632288
 30
0.0
 10
312.9179234994836
 20
-17.6764972334722
 30
0.0
 10
313.1637046196807
 20
-19.22576951108486
 30
0.0
 10
313.516112581618
 20
-20.8028311193786
 30
0.0
 10
313.9911565826158
 20
-22.38896393127979
 30
0.0
 10
314.608893188132
 20
-23.94083632495433
 30
0.0
 10
315.3938724130956
 20
-25.40651747664371
 30
0.0
 10
316.3347818828166
 20
-26.66913687446683
 30
0.0
 10
317.4222193235811
 20
-27.67973512328101
 30
0.0
 10
318.5671600206814
 20
-28.36733993369991
 30
0.0
 10
319.7603228627992
 20
-28.76812438959776
 30
0.0
 10
320.9409898005379
 20
-28.90756847182902
 30
0.0
 10
322.1226108530648
 20
-28.79515774573377
 30
0.0
 10
323.1562956341466
 20
-28.51484324564409
 30
0.0
 10
323.7326756001016
 20
-28.17730283593933
 30
0.0
 10
323.9678766545031
 20
-28.03956407860048
 30
0.0
  0
SPLINE
  5
FC
330
1F
100
AcDbEntity
  8
0
  6
Continuous
 62
     7
370
    25
100
AcDbSpline
210
0.0
220
0.0
230
1.0
 70
     8
 71
     3
 72
    13
 73
     9
 74
     0
 42
0.00000001
 43
0.00000001
 40
0.0
 40
0.0
 40
0.0
 40
0.0
 40
0.0063822937351132
 40
0.2242217845220229
 40
0.4484594153664998
 40
0.6635668564582556
 40
0.886078460690652
 40
1.0
 40
1.0
 40
1.0
 40
1.0
 10
313.9860000531997
 20
-10.74902700031918
 30
0.0
 10
313.9799445551286
 20
-10.7510739899069
 30
0.0
 10
313.7672037067693
 20
-10.8229885205295
 30
0.0
 10
313.4652186735318
 20
-11.18967595910345
 30
0.0
 10
313.0925813516713
 20
-11.88522230335899
 30
0.0
 10
312.8567769349346
 20
-12.87593163875033
 30
0.0
 10
312.7507906364144
 20
-13.89189694109594
 30
0.0
 10
312.7414390590018
 20
-14.6058215425164
 30
0.0
 10
312.7382724682117
 20
-14.84756761036343
 30
0.0
  0
LWPOLYLINE
  5
FD
330
1F
100
AcDbEntity
  8
0
  6
Continuous
 62
     7
370
    25
100
AcDbPolyline
 90
       59
 70
   128
 43
0.0
 10
374.9636692126
 20
4.7462270734
 10
374.9222183102
 20
5.6529920809
 10
374.7983515767
 20
6.596984291
 10
374.5935212363
 20
7.5671362583
 10
374.3101287376
 20
8.5520738378
 10
373.9514965985
 20
9.5402495371
 10
373.5218294529
 20
10.5200778995
 10
373.0261647553
 20
11.4800713334
 10
372.4703137209
 20
12.4089747934
 10
371.8607931951
 20
13.2958977359
 10
371.2047492486
 20
14.1304418002
 10
370.5098733969
 20
14.9028227201
 10
369.7843124241
 20
15.6039850357
 10
369.0365728691
 20
16.2257082599
 10
368.2754212946
 20
16.7607032562
 10
367.5097815069
 20
17.2026976976
 10
366.7486299324
 20
17.5465096032
 10
366.0008903774
 20
17.7881080929
 10
365.2753294046
 20
17.9246606453
 10
364.5804535529
 20
17.9545663065
 10
363.9244096064
 20
17.87747446
 10
363.3148890806
 20
17.6942889372
 10
362.7590380463
 20
17.4071574209
 10
362.2633733486
 20
17.0194462656
 10
361.833706203
 20
16.5357010301
 10
361.4750740639
 20
15.9615931849
 10
361.1916815652
 20
15.3038536198
 10
360.9868512249
 20
14.5701937296
 10
360.8629844914
 20
13.7692150058
 10
360.8215335889
 20
12.9103081916
 10
360.8629844914
 20
12.0035431841
 10
360.9868512249
 20
11.059550974
 10
361.1916815652
 20
10.0893990067
 10
361.4750740639
 20
9.1044614271
 10
361.833706203
 20
8.1162857279
 10
362.2633733486
 20
7.1364573655
 10
362.7590380463
 20
6.1764639316
 10
363.3148890806
 20
5.2475604716
 10
363.9244096064
 20
4.3606375291
 10
364.5804535529
 20
3.5260934648
 10
365.2753294046
 20
2.7537125448
 10
366.0008903774
 20
2.0525502292
 10
366.7486299324
 20
1.4308270051
 10
367.5097815069
 20
0.8958320088
 10
368.2754212946
 20
0.4538375674
 10
369.0365728691
 20
0.1100256618
 10
369.7843124241
 20
-0.1315728279
 10
370.5098733969
 20
-0.2681253803
 10
371.2047492486
 20
-0.2980310415
 10
371.8607931951
 20
-0.220939195
 10
372.4703137209
 20
-0.0377536722
 10
373.0261647553
 20
0.2493778441
 10
373.5218294529
 20
0.6370889994
 10
373.9514965985
 20
1.1208342349
 10
374.3101287376
 20
1.69494208
 10
374.5935212363
 20
2.3526816452
 10
374.7983515767
 20
3.0863415354
 10
374.9222183102
 20
3.8873202592
 10
374.9636692126
 20
4.7462270734
  0
LWPOLYLINE
  5
FE
330
1F
100
AcDbEntity
  8
0
  6
Continuous
 62
     7
370
    25
100
AcDbPolyline
 90
       49
 70
   128
 43
0.0
 10
372.8423488691
 20
5.9708392411
 10
372.8000030933
 20
6.7413446779
 10
372.673690314
 20
7.547557945
 10
372.4655717778
 20
8.37568451
 10
372.1792084506
 20
9.2115548977
 10
371.8195000883
 20
10.040867134
 10
371.3926014008
 20
10.8494314566
 10
370.9058167428
 20
11.6234131058
 10
370.3674751349
 20
12.349569041
 10
369.7867877513
 20
13.0154745329
 10
369.173690314
 20
13.6097357537
 10
368.5386730903
 20
14.1221847293
 10
367.8926014008
 20
14.5440533157
 10
367.2465297113
 20
14.8681232243
 10
366.6115124875
 20
15.0888495291
 10
365.9984150503
 20
15.202455542
 10
365.4177276666
 20
15.2069974324
 10
364.8793860587
 20
15.1023974875
 10
364.3926014008
 20
14.8904454412
 10
363.9657027132
 20
14.5747678519
 10
363.6059943509
 20
14.1607660505
 10
363.3196310237
 20
13.6555237228
 10
363.1115124875
 20
13.067685705
 10
362.9851997082
 20
12.4073100686
 10
362.9428539325
 20
11.6856960239
 10
362.9851997082
 20
10.9151905871
 10
363.1115124875
 20
10.10897732
 10
363.3196310237
 20
9.280850755
 10
363.6059943509
 20
8.4449803673
 10
363.9657027132
 20
7.615668131
 10
364.3926014008
 20
6.8071038084
 10
364.8793860587
 20
6.0331221592
 10
365.4177276666
 20
5.3069662239
 10
365.9984150503
 20
4.6410607321
 10
366.6115124875
 20
4.0467995113
 10
367.2465297113
 20
3.5343505356
 10
367.8926014008
 20
3.1124819493
 10
368.5386730903
 20
2.7884120407
 10
369.173690314
 20
2.5676857359
 10
369.7867877513
 20
2.454079723
 10
370.3674751349
 20
2.4495378326
 10
370.9058167428
 20
2.5541377775
 10
371.3926014008
 20
2.7660898238
 10
371.8195000883
 20
3.0817674131
 10
372.1792084506
 20
3.4957692145
 10
372.4655717778
 20
4.0010115422
 10
372.673690314
 20
4.58884956
 10
372.8000030933
 20
5.2492251963
 10
372.8423488691
 20
5.9708392411
  0
LWPOLYLINE
  5
FF
330
1F
100
AcDbEntity
  8
0
  6
Continuous
 62
     7
370
    25
100
AcDbPolyline
 90
       87
 70
   128
 43
0.0
 10
285.1611080019
 20
1.0723905702
 10
285.1196080751
 20
2.3597135493
 10
284.9953297146
 20
3.5922533077
 10
284.7889359992
 20
4.7634337124
 10
284.5015281288
 20
5.8670060093
 10
284.1346395487
 20
6.8970821627
 10
283.6902277682
 20
7.8481662705
 10
283.1706639165
 20
8.7151838877
 10
282.5787200914
 20
9.4935091
 10
281.9175545694
 20
10.1789892058
 10
281.1906949547
 20
10.7679668719
 10
280.4020193577
 20
11.2572996479
 10
279.5557357041
 20
11.6443767315
 10
278.6563592833
 20
11.9271328991
 10
277.7086886576
 20
12.1040595241
 10
276.7177800598
 20
12.1742126265
 10
275.6889204161
 20
12.1372179092
 10
274.6275991378
 20
11.9932727548
 10
273.5394788331
 20
11.7431451732
 10
272.4303650947
 20
11.3881697032
 10
271.3061755243
 20
10.9302402925
 10
270.1729081595
 20
10.3718001926
 10
269.0366094722
 20
9.7158289232
 10
267.9033421074
 20
8.9658263746
 10
266.7791525369
 20
8.1257941352
 10
265.6700387985
 20
7.2002141402
 10
264.5819184939
 20
6.1940247595
 10
263.5205972156
 20
5.1125944488
 10
262.4917375718
 20
3.9616931066
 10
261.5008289741
 20
2.7474612896
 10
260.5531583484
 20
1.4763774499
 10
259.6537819275
 20
0.1552233698
 10
258.8074982739
 20
-1.2089520222
 10
258.018822677
 20
-2.60887026
 10
257.2919630623
 20
-4.0370621742
 10
256.6307975403
 20
-5.4859077429
 10
256.0388537152
 20
-6.9476767481
 10
255.5192898634
 20
-8.4145700198
 10
255.0748780829
 20
-9.8787610477
 10
254.7079895028
 20
-11.3324377391
 10
254.4205816324
 20
-12.7678440998
 10
254.2141879171
 20
-14.177321616
 10
254.0899095566
 20
-15.5533501152
 10
254.0484096297
 20
-16.8885878899
 10
254.0899095566
 20
-18.175910869
 10
254.2141879171
 20
-19.4084506274
 10
254.4205816324
 20
-20.5796310321
 10
254.7079895028
 20
-21.683203329
 10
255.0748780829
 20
-22.7132794824
 10
255.5192898634
 20
-23.6643635903
 10
256.0388537152
 20
-24.5313812074
 10
256.6307975403
 20
-25.3097064198
 10
257.2919630623
 20
-25.9951865255
 10
258.018822677
 20
-26.5841641917
 10
258.8074982739
 20
-27.0734969676
 10
259.6537819275
 20
-27.4605740512
 10
260.5531583484
 20
-27.7433302188
 10
261.5008289741
 20
-27.9202568439
 10
262.4917375718
 20
-27.9904099463
 10
263.5205972156
 20
-27.9534152289
 10
264.5819184939
 20
-27.8094700746
 10
265.6700387985
 20
-27.559342493
 10
266.7791525369
 20
-27.2043670229
 10
267.9033421074
 20
-26.7464376122
 10
269.0366094722
 20
-26.1879975124
 10
270.1729081595
 20
-25.5320262429
 10
271.3061755243
 20
-24.7820236944
 10
272.4303650947
 20
-23.9419914549
 10
273.5394788331
 20
-23.01641146
 10
274.6275991378
 20
-22.0102220793
 10
275.6889204161
 20
-20.9287917685
 10
276.7177800598
 20
-19.7778904264
 10
277.7086886576
 20
-18.5636586094
 10
278.6563592833
 20
-17.2925747697
 10
279.5557357041
 20
-15.9714206895
 10
280.4020193577
 20
-14.6072452976
 10
281.1906949547
 20
-13.2073270597
 10
281.9175545694
 20
-11.7791351456
 10
282.5787200914
 20
-10.3302895769
 10
283.1706639165
 20
-8.8685205716
 10
283.6902277682
 20
-7.4016272999
 10
284.1346395487
 20
-5.9374362721
 10
284.5015281288
 20
-4.4837595807
 10
284.7889359992
 20
-3.0483532199
 10
284.9953297146
 20
-1.6388757038
 10
285.1196080751
 20
-0.2628472046
 10
285.1611080019
 20
1.0723905702
  0
LWPOLYLINE
  5
100
330
1F
100
AcDbEntity
  8
0
  6
Continuous
 62
     7
370
    25
100
AcDbPolyline
 90
       12
 70
   128
 43
0.0
 10
354.4575725582
 20
-38.9316069091
 10
354.4160726314
 20
-37.64428393
 10
354.2917942708
 20
-36.4117441717
 10
354.0854005555
 20
-35.2405637669
 10
353.7979926851
 20
-34.13699147
 10
353.431104105
 20
-33.1069153167
 10
352.9866923245
 20
-32.1558312088
 10
352.4671284727
 20
-31.2888135916
 10
351.8751846477
 20
-30.5104883793
 10
351.2140191257
 20
-29.8250082735
 10
350.487159511
 20
-29.2360306074
 10
349.9003294311
 20
-28.8590211668
  0
LWPOLYLINE
  5
101
330
1F
100
AcDbEntity
  8
0
  6
Continuous
 62
     7
370
    25
100
AcDbPolyline
 90
       34
 70
   128
 43
0.0
 10
327.9021173131
 20
-66.9651711116
 10
328.1039628302
 20
-67.0774944469
 10
328.9502464838
 20
-67.4645715306
 10
329.8496229046
 20
-67.7473276981
 10
330.7972935304
 20
-67.9242543232
 10
331.7882021281
 20
-67.9944074256
 10
332.8170617718
 20
-67.9574127082
 10
333.8783830501
 20
-67.8134675539
 10
334.9665033548
 20
-67.5633399723
 10
336.0756170932
 20
-67.2083645022
 10
337.1998066637
 20
-66.7504350915
 10
338.3330740284
 20
-66.1919949917
 10
339.4693727158
 20
-65.5360237222
 10
340.6026400805
 20
-64.7860211737
 10
341.726829651
 20
-63.9459889342
 10
342.8359433894
 20
-63.0204089393
 10
343.9240636941
 20
-62.0142195586
 10
344.9853849724
 20
-60.9327892478
 10
346.0142446161
 20
-59.7818879057
 10
347.0051532139
 20
-58.5676560887
 10
347.9528238396
 20
-57.296572249
 10
348.8522002604
 20
-55.9754181688
 10
349.698483914
 20
-54.6112427769
 10
350.487159511
 20
-53.2113245391
 10
351.2140191257
 20
-51.7831326249
 10
351.8751846477
 20
-50.3342870562
 10
352.4671284727
 20
-48.8725180509
 10
352.9866923245
 20
-47.4056247792
 10
353.431104105
 20
-45.9414337514
 10
353.7979926851
 20
-44.48775706
 10
354.0854005555
 20
-43.0523506992
 10
354.2917942708
 20
-41.6428731831
 10
354.4160726314
 20
-40.2668446839
 10
354.4575725582
 20
-38.9316069091
  0
LWPOLYLINE
  5
102
330
1F
100
AcDbEntity
  8
0
  6
Continuous
 62
     7
370
    25
100
AcDbPolyline
 90
       59
 70
   128
 43
0.0
 10
276.6758266277
 20
-3.8260581008
 10
276.6343757252
 20
-2.9671512866
 10
276.5105089917
 20
-2.1661725628
 10
276.3056786514
 20
-1.4325126726
 10
276.0222861527
 20
-0.7747731074
 10
275.6636540136
 20
-0.2006652623
 10
275.233986868
 20
0.2830799732
 10
274.7383221703
 20
0.6707911285
 10
274.182471136
 20
0.9579226448
 10
273.5729506102
 20
1.1411081676
 10
272.9169066637
 20
1.2182000141
 10
272.222030812
 20
1.1882943529
 10
271.4964698392
 20
1.0517418006
 10
270.7487302842
 20
0.8101433109
 10
269.9875787097
 20
0.4663314052
 10
269.221938922
 20
0.0243369639
 10
268.4607873475
 20
-0.5106580325
 10
267.7130477925
 20
-1.1323812566
 10
266.9874868197
 20
-1.8335435722
 10
266.292610968
 20
-2.6059244922
 10
265.6365670215
 20
-3.4404685565
 10
265.0270464957
 20
-4.3273914989
 10
264.4711954613
 20
-5.256294959
 10
263.9755307637
 20
-6.2162883928
 10
263.5458636181
 20
-7.1961167553
 10
263.187231479
 20
-8.1842924545
 10
262.9038389803
 20
-9.1692300341
 10
262.6990086399
 20
-10.1393820013
 10
262.5751419064
 20
-11.0833742115
 10
262.533691004
 20
-11.990139219
 10
262.5751419064
 20
-12.8490460332
 10
262.6990086399
 20
-13.650024757
 10
262.9038389803
 20
-14.3836846471
 10
263.187231479
 20
-15.0414242123
 10
263.5458636181
 20
-15.6155320575
 10
263.9755307637
 20
-16.099277293
 10
264.4711954613
 20
-16.4869884483
 10
265.0270464957
 20
-16.7741199646
 10
265.6365670215
 20
-16.9573054874
 10
266.292610968
 20
-17.0343973339
 10
266.9874868197
 20
-17.0044916727
 10
267.7130477925
 20
-16.8679391203
 10
268.4607873475
 20
-16.6263406306
 10
269.221938922
 20
-16.282528725
 10
269.9875787097
 20
-15.8405342836
 10
270.7487302842
 20
-15.3055392873
 10
271.4964698392
 20
-14.6838160631
 10
272.222030812
 20
-13.9826537475
 10
272.9169066637
 20
-13.2102728275
 10
273.5729506102
 20
-12.3757287633
 10
274.182471136
 20
-11.4888058208
 10
274.7383221703
 20
-10.5599023608
 10
275.233986868
 20
-9.5999089269
 10
275.6636540136
 20
-8.6200805645
 10
276.0222861527
 20
-7.6319048652
 10
276.3056786514
 20
-6.6469672857
 10
276.5105089917
 20
-5.6768153184
 10
276.6343757252
 20
-4.7328231083
 10
276.6758266277
 20
-3.8260581008
  0
ARC
  5
103
330
1F
100
AcDbEntity
  8
0
  6
Continuous
 62
     7
370
    25
100
AcDbCircle
 10
271.7799145485
 20
35.0089145623
 30
0.0
 40
3.536689892660867
100
AcDbArc
 50
114.5250616912
 51
174.1547973512
  0
LWPOLYLINE
  5
104
330
1F
100
AcDbEntity
  8
0
  6
Continuous
 62
     7
370
    25
100
AcDbPolyline
 90
       19
 70
   128
 43
0.0
 10
282.2616130653
 20
35.3690951703
 10
282.2017270949
 20
35.8965533384
 10
282.0230938493
 20
36.4149865511
 10
281.7287697929
 20
36.9155242722
 10
281.3237908918
 20
37.3896021626
 10
280.8150864474
 20
37.8291086182
 10
280.2113605336
 20
38.2265235617
 10
279.5229430684
 20
38.5750471132
 10
278.7616130653
 20
38.868715938
 10
277.9403970919
 20
39.1025052813
 10
277.073346381
 20
39.2724149424
 10
276.1752964109
 20
39.3755377201
 10
275.2616130653
 20
39.4101091549
 10
274.3479297198
 20
39.3755377201
 10
273.4498797496
 20
39.2724149424
 10
272.5828290388
 20
39.1025052813
 10
271.7616130653
 20
38.868715938
 10
271.0002830623
 20
38.5750471132
 10
270.311865597
 20
38.2265235617
  0
LWPOLYLINE
  5
105
330
1F
100
AcDbEntity
  8
0
  6
Continuous
 62
     7
370
    25
100
AcDbPolyline
 90
       22
 70
   128
 43
0.0
 10
339.3344617421
 20
3.8886971385
 10
339.3065469491
 20
3.9168695779
 10
338.7978425047
 20
4.3563760335
 10
338.1941165909
 20
4.753790977
 10
337.5056991257
 20
5.1023145284
 10
336.7443691226
 20
5.3959833533
 10
335.9231531492
 20
5.6297726966
 10
335.0561024383
 20
5.7996823577
 10
334.1580524682
 20
5.9028051354
 10
333.2443691226
 20
5.9373765702
 10
332.3306857771
 20
5.9028051354
 10
331.4326358069
 20
5.7996823577
 10
330.5655850961
 20
5.6297726966
 10
329.7443691226
 20
5.3959833533
 10
328.9830391196
 20
5.1023145284
 10
328.2946216543
 20
4.753790977
 10
327.6908957406
 20
4.3563760335
 10
327.1821912961
 20
3.9168695779
 10
326.777212395
 20
3.4427916875
 10
326.4828883386
 20
2.9422539663
 10
326.304255093
 20
2.4238207537
 10
326.2443691226
 20
1.8963625856
  0
ENDSEC
  0
SECTION
  2
OBJECTS
  0
DICTIONARY
  5
C
330
0
100
AcDbDictionary
281
     1
  3
ACAD_GROUP
350
D
  3
ACAD_LAYOUT
350
1A
  3
ACAD_MLINESTYLE
350
17
  3
ACAD_PLOTSETTINGS
350
19
  3
ACAD_PLOTSTYLENAME
350
E
  3
ACAD_SCALELIST
350
47
  3
DWGPROPS
350
106
  0
DICTIONARY
  5
D
102
{ACAD_REACTORS
330
C
102
}
330
C
100
AcDbDictionary
281
     1
  0
DICTIONARY
  5
1A
102
{ACAD_REACTORS
330
C
102
}
330
C
100
AcDbDictionary
281
     1
  3
Layout1
350
1E
  3
Layout2
350
26
  3
Model
350
22
  0
DICTIONARY
  5
17
102
{ACAD_REACTORS
330
C
102
}
330
C
100
AcDbDictionary
281
     1
  3
Standard
350
18
  0
DICTIONARY
  5
19
102
{ACAD_REACTORS
330
C
102
}
330
C
100
AcDbDictionary
281
     1
  0
ACDBDICTIONARYWDFLT
  5
E
102
{ACAD_REACTORS
330
C
102
}
330
C
100
AcDbDictionary
281
     1
  3
Normal
350
F
100
AcDbDictionaryWithDefault
340
F
  0
DICTIONARY
  5
47
102
{ACAD_REACTORS
330
C
102
}
330
C
100
AcDbDictionary
281
     1
  3
A0
350
48
  3
A1
350
49
  3
A2
350
4A
  3
A3
350
4B
  3
A4
350
4C
  3
A5
350
4D
  3
A6
350
4E
  3
A7
350
4F
  3
A8
350
50
  3
A9
350
51
  3
B0
350
52
  3
B1
350
53
  3
B2
350
54
  3
B3
350
55
  3
B4
350
56
  3
B5
350
57
  3
B6
350
58
  3
B7
350
59
  3
B8
350
5A
  3
B9
350
5B
  3
C0
350
5C
  3
C1
350
5D
  3
C2
350
5E
  3
C3
350
5F
  3
C4
350
60
  3
C5
350
61
  3
C6
350
62
  3
C7
350
63
  3
C8
350
64
  3
C9
350
65
  3
D0
350
66
  3
D1
350
67
  3
D2
350
68
  0
XRECORD
  5
106
102
{ACAD_REACTORS
330
C
102
}
330
C
100
AcDbXrecord
280
     1
  1
DWGPROPS COOKIE
  2

  3

  4

  6

  7

  8
b.kav
  9

300
=
301
=
302
=
303
=
304
=
305
=
306
=
307
=
308
=
309
=
 40
0.0
 41
2459741.482844294
 42
2459741.482844375
  1

 90
        0
  0
LAYOUT
  5
1E
102
{ACAD_REACTORS
330
1A
102
}
330
1A
100
AcDbPlotSettings
  1

  2
none_device
  4

  6

 40
0.0
 41
0.0
 42
0.0
 43
0.0
 44
0.0
 45
0.0
 46
0.0
 47
0.0
 48
0.0
 49
0.0
140
0.0
141
0.0
142
1.0
143
1.0
 70
   688
 72
     1
 73
     0
 74
     5
  7

 75
    16
147
1.0
148
0.0
149
0.0
100
AcDbLayout
  1
Layout1
 70
     1
 71
     1
 10
0.0
 20
0.0
 11
420.0
 21
297.0
 12
0.0
 22
0.0
 32
0.0
 14
1.0000000000E+20
 24
1.0000000000E+20
 34
1.0000000000E+20
 15
-1.0000000000E+20
 25
-1.0000000000E+20
 35
-1.0000000000E+20
146
0.0
 13
0.0
 23
0.0
 33
0.0
 16
1.0
 26
0.0
 36
0.0
 17
0.0
 27
1.0
 37
0.0
 76
     0
330
1B
  0
LAYOUT
  5
26
102
{ACAD_REACTORS
330
1A
102
}
330
1A
100
AcDbPlotSettings
  1

  2
none_device
  4

  6

 40
0.0
 41
0.0
 42
0.0
 43
0.0
 44
0.0
 45
0.0
 46
0.0
 47
0.0
 48
0.0
 49
0.0
140
0.0
141
0.0
142
1.0
143
1.0
 70
   688
 72
     1
 73
     0
 74
     5
  7

 75
    16
147
1.0
148
0.0
149
0.0
100
AcDbLayout
  1
Layout2
 70
     1
 71
     2
 10
0.0
 20
0.0
 11
0.0
 21
0.0
 12
0.0
 22
0.0
 32
0.0
 14
0.0
 24
0.0
 34
0.0
 15
0.0
 25
0.0
 35
0.0
146
0.0
 13
0.0
 23
0.0
 33
0.0
 16
1.0
 26
0.0
 36
0.0
 17
0.0
 27
1.0
 37
0.0
 76
     0
330
23
  0
LAYOUT
  5
22
102
{ACAD_REACTORS
330
1A
102
}
330
1A
100
AcDbPlotSettings
  1

  2
none_device
  4
Letter_(8.50_x_11.00_Inches)
  6

 40
6.35
 41
6.35
 42
6.35000508
 43
6.35000508
 44
215.9
 45
279.4
 46
0.0
 47
0.0
 48
0.0
 49
0.0
140
0.0
141
0.0
142
1.0
143
1.0
 70
  1712
 72
     1
 73
     0
 74
     0
  7

 75
     0
147
1.0
148
0.0
149
0.0
100
AcDbLayout
  1
Model
 70
     1
 71
     0
 10
0.0
 20
0.0
 11
279.4
 21
215.9
 12
0.0
 22
0.0
 32
0.0
 14
0.0
 24
0.0
 34
0.0
 15
279.4
 25
215.9
 35
0.0
146
0.0
 13
0.0
 23
0.0
 33
0.0
 16
1.0
 26
0.0
 36
0.0
 17
0.0
 27
1.0
 37
0.0
 76
     0
330
1F
331
29
  0
MLINESTYLE
  5
18
102
{ACAD_REACTORS
330
17
102
}
330
17
100
AcDbMlineStyle
  2
Standard
 70
     0
  3

 62
   256
 51
90.0
 52
90.0
 71
     2
 49
0.5
 62
   256
  6
BYLAYER
 49
-0.5
 62
   256
  6
BYLAYER
  0
ACDBPLACEHOLDER
  5
F
102
{ACAD_REACTORS
330
E
102
}
330
E
  0
SCALE
  5
48
102
{ACAD_REACTORS
330
47
102
}
330
47
100
AcDbScale
 70
     0
300
1:1
140
1.0
141
1.0
290
     1
  0
SCALE
  5
49
102
{ACAD_REACTORS
330
47
102
}
330
47
100
AcDbScale
 70
     0
300
1:2
140
1.0
141
2.0
290
     0
  0
SCALE
  5
4A
102
{ACAD_REACTORS
330
47
102
}
330
47
100
AcDbScale
 70
     0
300
1:4
140
1.0
141
4.0
290
     0
  0
SCALE
  5
4B
102
{ACAD_REACTORS
330
47
102
}
330
47
100
AcDbScale
 70
     0
300
1:5
140
1.0
141
5.0
290
     0
  0
SCALE
  5
4C
102
{ACAD_REACTORS
330
47
102
}
330
47
100
AcDbScale
 70
     0
300
1:8
140
1.0
141
8.0
290
     0
  0
SCALE
  5
4D
102
{ACAD_REACTORS
330
47
102
}
330
47
100
AcDbScale
 70
     0
300
1:10
140
1.0
141
10.0
290
     0
  0
SCALE
  5
4E
102
{ACAD_REACTORS
330
47
102
}
330
47
100
AcDbScale
 70
     0
300
1:16
140
1.0
141
16.0
290
     0
  0
SCALE
  5
4F
102
{ACAD_REACTORS
330
47
102
}
330
47
100
AcDbScale
 70
     0
300
1:20
140
1.0
141
20.0
290
     0
  0
SCALE
  5
50
102
{ACAD_REACTORS
330
47
102
}
330
47
100
AcDbScale
 70
     0
300
1:30
140
1.0
141
30.0
290
     0
  0
SCALE
  5
51
102
{ACAD_REACTORS
330
47
102
}
330
47
100
AcDbScale
 70
     0
300
1:40
140
1.0
141
40.0
290
     0
  0
SCALE
  5
52
102
{ACAD_REACTORS
330
47
102
}
330
47
100
AcDbScale
 70
     0
300
1:50
140
1.0
141
50.0
290
     0
  0
SCALE
  5
53
102
{ACAD_REACTORS
330
47
102
}
330
47
100
AcDbScale
 70
     0
300
1:100
140
1.0
141
100.0
290
     0
  0
SCALE
  5
54
102
{ACAD_REACTORS
330
47
102
}
330
47
100
AcDbScale
 70
     0
300
2:1
140
2.0
141
1.0
290
     0
  0
SCALE
  5
55
102
{ACAD_REACTORS
330
47
102
}
330
47
100
AcDbScale
 70
     0
300
4:1
140
4.0
141
1.0
290
     0
  0
SCALE
  5
56
102
{ACAD_REACTORS
330
47
102
}
330
47
100
AcDbScale
 70
     0
300
8:1
140
8.0
141
1.0
290
     0
  0
SCALE
  5
57
102
{ACAD_REACTORS
330
47
102
}
330
47
100
AcDbScale
 70
     0
300
10:1
140
10.0
141
1.0
290
     0
  0
SCALE
  5
58
102
{ACAD_REACTORS
330
47
102
}
330
47
100
AcDbScale
 70
     0
300
100:1
140
100.0
141
1.0
290
     0
  0
SCALE
  5
59
102
{ACAD_REACTORS
330
47
102
}
330
47
100
AcDbScale
 70
     0
300
1/128" = 1'-0"
140
0.0078125
141
12.0
290
     0
  0
SCALE
  5
5A
102
{ACAD_REACTORS
330
47
102
}
330
47
100
AcDbScale
 70
     0
300
1/64" = 1'-0"
140
0.015625
141
12.0
290
     0
  0
SCALE
  5
5B
102
{ACAD_REACTORS
330
47
102
}
330
47
100
AcDbScale
 70
     0
300
1/32" = 1'-0"
140
0.03125
141
12.0
290
     0
  0
SCALE
  5
5C
102
{ACAD_REACTORS
330
47
102
}
330
47
100
AcDbScale
 70
     0
300
1/16" = 1'-0"
140
0.0625
141
12.0
290
     0
  0
SCALE
  5
5D
102
{ACAD_REACTORS
330
47
102
}
330
47
100
AcDbScale
 70
     0
300
3/32" = 1'-0"
140
0.09375
141
12.0
290
     0
  0
SCALE
  5
5E
102
{ACAD_REACTORS
330
47
102
}
330
47
100
AcDbScale
 70
     0
300
1/8" = 1'-0"
140
0.125
141
12.0
290
     0
  0
SCALE
  5
5F
102
{ACAD_REACTORS
330
47
102
}
330
47
100
AcDbScale
 70
     0
300
3/16" = 1'-0"
140
0.1875
141
12.0
290
     0
  0
SCALE
  5
60
102
{ACAD_REACTORS
330
47
102
}
330
47
100
AcDbScale
 70
     0
300
1/4" = 1'-0"
140
0.25
141
12.0
290
     0
  0
SCALE
  5
61
102
{ACAD_REACTORS
330
47
102
}
330
47
100
AcDbScale
 70
     0
300
3/8" = 1'-0"
140
0.375
141
12.0
290
     0
  0
SCALE
  5
62
102
{ACAD_REACTORS
330
47
102
}
330
47
100
AcDbScale
 70
     0
300
1/2" = 1'-0"
140
0.5
141
12.0
290
     0
  0
SCALE
  5
63
102
{ACAD_REACTORS
330
47
102
}
330
47
100
AcDbScale
 70
     0
300
3/4" = 1'-0"
140
0.75
141
12.0
290
     0
  0
SCALE
  5
64
102
{ACAD_REACTORS
330
47
102
}
330
47
100
AcDbScale
 70
     0
300
1" = 1'-0"
140
1.0
141
12.0
290
     0
  0
SCALE
  5
65
102
{ACAD_REACTORS
330
47
102
}
330
47
100
AcDbScale
 70
     0
300
1-1/2" = 1'-0"
140
1.5
141
12.0
290
     0
  0
SCALE
  5
66
102
{ACAD_REACTORS
330
47
102
}
330
47
100
AcDbScale
 70
     0
300
3" = 1'-0"
140
3.0
141
12.0
290
     0
  0
SCALE
  5
67
102
{ACAD_REACTORS
330
47
102
}
330
47
100
AcDbScale
 70
     0
300
6" = 1'-0"
140
6.0
141
12.0
290
     0
  0
SCALE
  5
68
102
{ACAD_REACTORS
330
47
102
}
330
47
100
AcDbScale
 70
     0
300
1'-0" = 1'-0"
140
12.0
141
12.0
290
     0
  0
ENDSEC
  0
EOF
